ISO-10303-21;
HEADER;
FILE_DESCRIPTION (( 'STEP AP203' ),
    '1' );
FILE_NAME ('BK7-LPBSC-20-633.STEP',
    '2020-12-22T03:13:23',
    ( '' ),
    ( '' ),
    'SwSTEP 2.0',
    'SolidWorks 2020',
    '' );
FILE_SCHEMA (( 'CONFIG_CONTROL_DESIGN' ));
ENDSEC;

DATA;
#1 = COORDINATED_UNIVERSAL_TIME_OFFSET ( 8, 0, .AHEAD. ) ;
#2 = AXIS2_PLACEMENT_3D ( 'NONE', #166, #319, #242 ) ;
#3 = APPROVAL_DATE_TIME ( #222, #33 ) ;
#4 = PERSON_AND_ORGANIZATION ( #40, #35 ) ;
#5 = PERSON_AND_ORGANIZATION_ROLE ( 'creator' ) ;
#6 = ORIENTED_EDGE ( 'NONE', *, *, #12, .T. ) ;
#7 = CARTESIAN_POINT ( 'NONE',  ( 10.00000000000000000, 10.00000000000000000, 10.00000000000000000 ) ) ;
#8 = VECTOR ( 'NONE', #232, 1000.000000000000000 ) ;
#9 = ORIENTED_EDGE ( 'NONE', *, *, #110, .T. ) ;
#10 = DIRECTION ( 'NONE',  ( 0.000000000000000000, -0.000000000000000000, 1.000000000000000000 ) ) ;
#11 =( GEOMETRIC_REPRESENTATION_CONTEXT ( 3 ) GLOBAL_UNCERTAINTY_ASSIGNED_CONTEXT ( ( #24 ) ) GLOBAL_UNIT_ASSIGNED_CONTEXT ( ( #146, #140, #20 ) ) REPRESENTATION_CONTEXT ( 'NONE', 'WORKASPACE' ) );
#12 = EDGE_CURVE ( 'NONE', #58, #158, #255, .T. ) ;
#13 = ORIENTED_EDGE ( 'NONE', *, *, #198, .T. ) ;
#14 = CARTESIAN_POINT ( 'NONE',  ( 10.00000000000000000, 10.00000000000000000, 10.00000000000000000 ) ) ;
#15 = DIRECTION ( 'NONE',  ( 0.7071067811865475727, 0.7071067811865474617, 0.000000000000000000 ) ) ;
#16 = LOCAL_TIME ( 11, 13, 23.00000000000000000, #147 ) ;
#17 = DIRECTION ( 'NONE',  ( -0.000000000000000000, -0.000000000000000000, -1.000000000000000000 ) ) ;
#18 = FACE_OUTER_BOUND ( 'NONE', #154, .T. ) ;
#19 = LINE ( 'NONE', #114, #54 ) ;
#20 =( NAMED_UNIT ( * ) SI_UNIT ( $, .STERADIAN. ) SOLID_ANGLE_UNIT ( ) );
#21 = EDGE_CURVE ( 'NONE', #270, #158, #129, .T. ) ;
#22 = ORIENTED_EDGE ( 'NONE', *, *, #21, .F. ) ;
#23 = LINE ( 'NONE', #170, #150 ) ;
#24 = UNCERTAINTY_MEASURE_WITH_UNIT (LENGTH_MEASURE( 1.000000000000000082E-05 ), #146, 'distance_accuracy_value', 'NONE');
#25 = CALENDAR_DATE ( 2020, 22, 12 ) ;
#26 = EDGE_LOOP ( 'NONE', ( #103, #100, #102 ) ) ;
#27 = DATE_TIME_ROLE ( 'creation_date' ) ;
#28 = VERTEX_POINT ( 'NONE', #228 ) ;
#29 = LOCAL_TIME ( 11, 13, 23.00000000000000000, #194 ) ;
#30 = PERSON_AND_ORGANIZATION ( #40, #35 ) ;
#31 = ORIENTED_EDGE ( 'NONE', *, *, #98, .F. ) ;
#32 = ADVANCED_FACE ( 'NONE', ( #161 ), #279, .F. ) ;
#33 = APPROVAL ( #193, 'UNSPECIFIED' ) ;
#34 = ORIENTED_EDGE ( 'NONE', *, *, #169, .T. ) ;
#35 = ORGANIZATION ( 'UNSPECIFIED', 'UNSPECIFIED', '' ) ;
#36 = DIRECTION ( 'NONE',  ( 1.000000000000000000, 0.000000000000000000, 0.000000000000000000 ) ) ;
#37 = CC_DESIGN_DATE_AND_TIME_ASSIGNMENT ( #122, #231, ( #162 ) ) ;
#38 = EDGE_LOOP ( 'NONE', ( #31, #280, #257, #199 ) ) ;
#39 = PLANE ( 'NONE',  #219 ) ;
#40 = PERSON ( 'UNSPECIFIED', 'UNSPECIFIED', 'UNSPECIFIED', ('UNSPECIFIED'), ('UNSPECIFIED'), ('UNSPECIFIED') ) ;
#41 = FACE_OUTER_BOUND ( 'NONE', #180, .T. ) ;
#42 = LINE ( 'NONE', #288, #272 ) ;
#43 = ADVANCED_FACE ( 'NONE', ( #281 ), #259, .F. ) ;
#44 = DIRECTION ( 'NONE',  ( 1.000000000000000000, -2.220446049250313081E-16, 0.000000000000000000 ) ) ;
#45 = DIRECTION ( 'NONE',  ( 1.000000000000000000, 0.000000000000000000, 0.000000000000000000 ) ) ;
#46 = EDGE_LOOP ( 'NONE', ( #175, #125, #119, #278 ) ) ;
#47 = MANIFOLD_SOLID_BREP ( '¾µÏ', #115 ) ;
#48 = PLANE ( 'NONE',  #305 ) ;
#49 = ORIENTED_EDGE ( 'NONE', *, *, #160, .T. ) ;
#50 = CALENDAR_DATE ( 2020, 22, 12 ) ;
#51 = AXIS2_PLACEMENT_3D ( 'NONE', #63, #61, #202 ) ;
#52 = PERSON_AND_ORGANIZATION_ROLE ( 'design_owner' ) ;
#53 = EDGE_LOOP ( 'NONE', ( #121, #221, #13 ) ) ;
#54 = VECTOR ( 'NONE', #211, 1000.000000000000000 ) ;
#55 = CALENDAR_DATE ( 2020, 22, 12 ) ;
#56 = EDGE_LOOP ( 'NONE', ( #152, #179, #127, #320 ) ) ;
#57 = ADVANCED_FACE ( 'NONE', ( #308 ), #284, .F. ) ;
#58 = VERTEX_POINT ( 'NONE', #233 ) ;
#59 = APPROVAL_DATE_TIME ( #227, #181 ) ;
#60 = DIRECTION ( 'NONE',  ( 2.220446049250313081E-16, 1.000000000000000000, 0.000000000000000000 ) ) ;
#61 = DIRECTION ( 'NONE',  ( 1.000000000000000000, -2.220446049250313081E-16, 0.000000000000000000 ) ) ;
#62 = CC_DESIGN_APPROVAL ( #109, ( #143 ) ) ;
#63 = CARTESIAN_POINT ( 'NONE',  ( -10.00000000000000178, -9.999999999999996447, 10.00000000000000000 ) ) ;
#64 = ORIENTED_EDGE ( 'NONE', *, *, #136, .T. ) ;
#65 = LINE ( 'NONE', #210, #218 ) ;
#66 = PRODUCT_RELATED_PRODUCT_CATEGORY ( 'detail', '', ( #112 ) ) ;
#67 = DIRECTION ( 'NONE',  ( 2.220446049250313081E-16, 1.000000000000000000, 0.000000000000000000 ) ) ;
#68 = CARTESIAN_POINT ( 'NONE',  ( 10.00000000000000000, 10.00000000000000000, 10.00000000000000000 ) ) ;
#69 = ADVANCED_FACE ( 'NONE', ( #84 ), #235, .F. ) ;
#70 = LINE ( 'NONE', #318, #139 ) ;
#71 = DIRECTION ( 'NONE',  ( 1.000000000000000000, 0.000000000000000000, 0.000000000000000000 ) ) ;
#72 = DIRECTION ( 'NONE',  ( -0.000000000000000000, 0.000000000000000000, 1.000000000000000000 ) ) ;
#73 = AXIS2_PLACEMENT_3D ( 'NONE', #200, #10, #60 ) ;
#74 = LINE ( 'NONE', #172, #173 ) ;
#75 = VERTEX_POINT ( 'NONE', #82 ) ;
#76 = PERSON_AND_ORGANIZATION_ROLE ( 'creator' ) ;
#77 = PERSON_AND_ORGANIZATION_ROLE ( 'classification_officer' ) ;
#78 = ADVANCED_FACE ( 'NONE', ( #183 ), #39, .F. ) ;
#79 = ORIENTED_EDGE ( 'NONE', *, *, #142, .F. ) ;
#80 = APPROVAL_ROLE ( '' ) ;
#81 = ORIENTED_EDGE ( 'NONE', *, *, #169, .F. ) ;
#82 = CARTESIAN_POINT ( 'NONE',  ( -10.00000000000000178, -9.999999999999996447, 10.00000000000000000 ) ) ;
#83 = VECTOR ( 'NONE', #86, 1000.000000000000000 ) ;
#84 = FACE_OUTER_BOUND ( 'NONE', #216, .T. ) ;
#85 = CARTESIAN_POINT ( 'NONE',  ( -10.00000000000000178, -9.999999999999996447, -10.00000000000000000 ) ) ;
#86 = DIRECTION ( 'NONE',  ( -0.7071067811865475727, -0.7071067811865474617, 0.000000000000000000 ) ) ;
#87 = CC_DESIGN_DATE_AND_TIME_ASSIGNMENT ( #120, #27, ( #143 ) ) ;
#88 = DIRECTION ( 'NONE',  ( 1.000000000000000000, 0.000000000000000000, 0.000000000000000000 ) ) ;
#89 = VECTOR ( 'NONE', #289, 1000.000000000000000 ) ;
#90 = CARTESIAN_POINT ( 'NONE',  ( -9.999999999999998224, -10.00000000000000000, 10.00000000000000000 ) ) ;
#91 = EDGE_CURVE ( 'NONE', #298, #217, #203, .T. ) ;
#92 = VECTOR ( 'NONE', #207, 1000.000000000000000 ) ;
#93 = DIRECTION ( 'NONE',  ( -1.000000000000000000, 0.000000000000000000, 0.000000000000000000 ) ) ;
#94 = CARTESIAN_POINT ( 'NONE',  ( 10.00000000000000178, 9.999999999999998224, 10.00000000000000000 ) ) ;
#95 = VERTEX_POINT ( 'NONE', #205 ) ;
#96 = AXIS2_PLACEMENT_3D ( 'NONE', #168, #111, #267 ) ;
#97 = CALENDAR_DATE ( 2020, 22, 12 ) ;
#98 = EDGE_CURVE ( 'NONE', #28, #95, #311, .T. ) ;
#99 = APPROVAL_ROLE ( '' ) ;
#100 = ORIENTED_EDGE ( 'NONE', *, *, #98, .T. ) ;
#101 = LINE ( 'NONE', #282, #132 ) ;
#102 = ORIENTED_EDGE ( 'NONE', *, *, #292, .T. ) ;
#103 = ORIENTED_EDGE ( 'NONE', *, *, #273, .T. ) ;
#104 = VERTEX_POINT ( 'NONE', #182 ) ;
#105 = CARTESIAN_POINT ( 'NONE',  ( -9.999999999999998224, -10.00000000000000000, -10.00000000000000000 ) ) ;
#106 = DIRECTION ( 'NONE',  ( -2.220446049250313081E-16, -1.000000000000000000, 0.000000000000000000 ) ) ;
#107 = LOCAL_TIME ( 11, 13, 23.00000000000000000, #157 ) ;
#108 = ORIENTED_EDGE ( 'NONE', *, *, #240, .T. ) ;
#109 = APPROVAL ( #299, 'UNSPECIFIED' ) ;
#110 = EDGE_CURVE ( 'NONE', #217, #75, #101, .T. ) ;
#111 = DIRECTION ( 'NONE',  ( 0.000000000000000000, 1.000000000000000000, 0.000000000000000000 ) ) ;
#112 = PRODUCT ( 'BK7-LPBSC-20-633', 'BK7-LPBSC-20-633', '', ( #151 ) ) ;
#113 = APPROVAL_PERSON_ORGANIZATION ( #176, #33, #220 ) ;
#114 = CARTESIAN_POINT ( 'NONE',  ( -10.00000000000000178, -9.999999999999996447, 10.00000000000000000 ) ) ;
#115 = CLOSED_SHELL ( 'NONE', ( #69, #32, #78, #118, #57 ) ) ;
#116 = CARTESIAN_POINT ( 'NONE',  ( 0.000000000000000000, 0.000000000000000000, 10.00000000000000000 ) ) ;
#117 = APPLICATION_PROTOCOL_DEFINITION ( 'international standard', 'config_control_design', 1994, #244 ) ;
#118 = ADVANCED_FACE ( 'NONE', ( #213 ), #243, .T. ) ;
#119 = ORIENTED_EDGE ( 'NONE', *, *, #198, .F. ) ;
#120 = DATE_AND_TIME ( #25, #209 ) ;
#121 = ORIENTED_EDGE ( 'NONE', *, *, #142, .T. ) ;
#122 = DATE_AND_TIME ( #55, #29 ) ;
#123 = ORIENTED_EDGE ( 'NONE', *, *, #160, .F. ) ;
#124 = SECURITY_CLASSIFICATION_LEVEL ( 'unclassified' ) ;
#125 = ORIENTED_EDGE ( 'NONE', *, *, #136, .F. ) ;
#126 = PERSON_AND_ORGANIZATION ( #40, #35 ) ;
#127 = ORIENTED_EDGE ( 'NONE', *, *, #91, .T. ) ;
#128 = ADVANCED_FACE ( 'NONE', ( #18 ), #163, .F. ) ;
#129 = LINE ( 'NONE', #184, #8 ) ;
#130 = ADVANCED_FACE ( 'NONE', ( #41 ), #287, .F. ) ;
#131 = VERTEX_POINT ( 'NONE', #237 ) ;
#132 = VECTOR ( 'NONE', #138, 1000.000000000000000 ) ;
#133 = DIRECTION ( 'NONE',  ( 0.000000000000000000, 0.000000000000000000, 1.000000000000000000 ) ) ;
#134 = DIRECTION ( 'NONE',  ( -0.7071067811865475727, -0.7071067811865474617, 0.000000000000000000 ) ) ;
#135 = CARTESIAN_POINT ( 'NONE',  ( 10.00000000000000178, 9.999999999999998224, 10.00000000000000000 ) ) ;
#136 = EDGE_CURVE ( 'NONE', #141, #306, #317, .T. ) ;
#137 = AXIS2_PLACEMENT_3D ( 'NONE', #206, #269, #45 ) ;
#138 = DIRECTION ( 'NONE',  ( -0.7071067811865475727, -0.7071067811865474617, 0.000000000000000000 ) ) ;
#139 = VECTOR ( 'NONE', #297, 1000.000000000000000 ) ;
#140 =( NAMED_UNIT ( * ) PLANE_ANGLE_UNIT ( ) SI_UNIT ( $, .RADIAN. ) );
#141 = VERTEX_POINT ( 'NONE', #94 ) ;
#142 = EDGE_CURVE ( 'NONE', #141, #131, #188, .T. ) ;
#143 = PRODUCT_DEFINITION ( 'UNKNOWN', '', #197, #212 ) ;
#144 = VECTOR ( 'NONE', #241, 1000.000000000000000 ) ;
#145 = DIRECTION ( 'NONE',  ( 0.000000000000000000, 0.000000000000000000, 1.000000000000000000 ) ) ;
#146 =( LENGTH_UNIT ( ) NAMED_UNIT ( * ) SI_UNIT ( .MILLI., .METRE. ) );
#147 = COORDINATED_UNIVERSAL_TIME_OFFSET ( 8, 0, .AHEAD. ) ;
#148 = CLOSED_SHELL ( 'NONE', ( #43, #128, #285, #296, #130 ) ) ;
#149 = SHAPE_DEFINITION_REPRESENTATION ( #208, #293 ) ;
#150 = VECTOR ( 'NONE', #167, 1000.000000000000000 ) ;
#151 = MECHANICAL_CONTEXT ( 'NONE', #244, 'mechanical' ) ;
#152 = ORIENTED_EDGE ( 'NONE', *, *, #292, .F. ) ;
#153 = DIRECTION ( 'NONE',  ( 0.7071067811865475727, 0.7071067811865474617, 0.000000000000000000 ) ) ;
#154 = EDGE_LOOP ( 'NONE', ( #6, #22, #253, #34 ) ) ;
#155 = AXIS2_PLACEMENT_3D ( 'NONE', #191, #262, #290 ) ;
#156 = LOCAL_TIME ( 11, 13, 23.00000000000000000, #1 ) ;
#157 = COORDINATED_UNIVERSAL_TIME_OFFSET ( 8, 0, .AHEAD. ) ;
#158 = VERTEX_POINT ( 'NONE', #185 ) ;
#159 = CARTESIAN_POINT ( 'NONE',  ( 10.00000000000000178, 9.999999999999998224, 10.00000000000000000 ) ) ;
#160 = EDGE_CURVE ( 'NONE', #306, #58, #65, .T. ) ;
#161 = FACE_OUTER_BOUND ( 'NONE', #38, .T. ) ;
#162 = SECURITY_CLASSIFICATION ( '', '', #124 ) ;
#163 = PLANE ( 'NONE',  #96 ) ;
#164 = LINE ( 'NONE', #135, #89 ) ;
#165 = LINE ( 'NONE', #263, #144 ) ;
#166 = CARTESIAN_POINT ( 'NONE',  ( 0.000000000000000000, 0.000000000000000000, 0.000000000000000000 ) ) ;
#167 = DIRECTION ( 'NONE',  ( -0.000000000000000000, 0.000000000000000000, -1.000000000000000000 ) ) ;
#168 = CARTESIAN_POINT ( 'NONE',  ( -9.999999999999998224, -10.00000000000000000, 10.00000000000000000 ) ) ;
#169 = EDGE_CURVE ( 'NONE', #131, #58, #238, .T. ) ;
#170 = CARTESIAN_POINT ( 'NONE',  ( 10.00000000000000000, 10.00000000000000000, 10.00000000000000000 ) ) ;
#171 = EDGE_CURVE ( 'NONE', #131, #270, #314, .T. ) ;
#172 = CARTESIAN_POINT ( 'NONE',  ( 10.00000000000000000, 10.00000000000000000, -10.00000000000000000 ) ) ;
#173 = VECTOR ( 'NONE', #271, 1000.000000000000000 ) ;
#174 = CARTESIAN_POINT ( 'NONE',  ( 10.00000000000000178, 9.999999999999998224, 10.00000000000000000 ) ) ;
#175 = ORIENTED_EDGE ( 'NONE', *, *, #226, .T. ) ;
#176 = PERSON_AND_ORGANIZATION ( #40, #35 ) ;
#177 = VECTOR ( 'NONE', #88, 1000.000000000000000 ) ;
#178 = CC_DESIGN_SECURITY_CLASSIFICATION ( #162, ( #197 ) ) ;
#179 = ORIENTED_EDGE ( 'NONE', *, *, #246, .F. ) ;
#180 = EDGE_LOOP ( 'NONE', ( #123, #225, #277 ) ) ;
#181 = APPROVAL ( #275, 'UNSPECIFIED' ) ;
#182 = CARTESIAN_POINT ( 'NONE',  ( 10.00000000000000000, 10.00000000000000000, -10.00000000000000000 ) ) ;
#183 = FACE_OUTER_BOUND ( 'NONE', #56, .T. ) ;
#184 = CARTESIAN_POINT ( 'NONE',  ( 10.00000000000000178, -10.00000000000000000, 10.00000000000000000 ) ) ;
#185 = CARTESIAN_POINT ( 'NONE',  ( 10.00000000000000178, -10.00000000000000000, -10.00000000000000000 ) ) ;
#186 = CC_DESIGN_PERSON_AND_ORGANIZATION_ASSIGNMENT ( #201, #300, ( #197 ) ) ;
#187 = CARTESIAN_POINT ( 'NONE',  ( -9.999999999999998224, -10.00000000000000000, 10.00000000000000000 ) ) ;
#188 = LINE ( 'NONE', #261, #83 ) ;
#189 = EDGE_CURVE ( 'NONE', #75, #298, #42, .T. ) ;
#190 = FACE_OUTER_BOUND ( 'NONE', #53, .T. ) ;
#191 = CARTESIAN_POINT ( 'NONE',  ( 0.000000000000000000, 0.000000000000000000, 10.00000000000000000 ) ) ;
#192 = PERSON_AND_ORGANIZATION ( #40, #35 ) ;
#193 = APPROVAL_STATUS ( 'not_yet_approved' ) ;
#194 = COORDINATED_UNIVERSAL_TIME_OFFSET ( 8, 0, .AHEAD. ) ;
#195 = ORIENTED_EDGE ( 'NONE', *, *, #301, .F. ) ;
#196 = DIRECTION ( 'NONE',  ( -0.7071067811865474617, 0.7071067811865475727, 0.000000000000000000 ) ) ;
#197 = PRODUCT_DEFINITION_FORMATION_WITH_SPECIFIED_SOURCE ( 'ANY', '', #112, .NOT_KNOWN. ) ;
#198 = EDGE_CURVE ( 'NONE', #270, #141, #164, .T. ) ;
#199 = ORIENTED_EDGE ( 'NONE', *, *, #246, .T. ) ;
#200 = CARTESIAN_POINT ( 'NONE',  ( 0.000000000000000000, 0.000000000000000000, -10.00000000000000000 ) ) ;
#201 = PERSON_AND_ORGANIZATION ( #40, #35 ) ;
#202 = DIRECTION ( 'NONE',  ( 0.000000000000000000, 0.000000000000000000, 1.000000000000000000 ) ) ;
#203 = LINE ( 'NONE', #7, #234 ) ;
#204 = APPROVAL_PERSON_ORGANIZATION ( #126, #181, #80 ) ;
#205 = CARTESIAN_POINT ( 'NONE',  ( -9.999999999999998224, 10.00000000000000355, -10.00000000000000000 ) ) ;
#206 = CARTESIAN_POINT ( 'NONE',  ( 0.000000000000000000, 0.000000000000000000, -10.00000000000000000 ) ) ;
#207 = DIRECTION ( 'NONE',  ( -0.000000000000000000, -0.000000000000000000, -1.000000000000000000 ) ) ;
#208 = PRODUCT_DEFINITION_SHAPE ( 'NONE', 'NONE',  #143 ) ;
#209 = LOCAL_TIME ( 11, 13, 23.00000000000000000, #303 ) ;
#210 = CARTESIAN_POINT ( 'NONE',  ( 10.00000000000000178, 9.999999999999998224, -10.00000000000000000 ) ) ;
#211 = DIRECTION ( 'NONE',  ( -0.000000000000000000, 0.000000000000000000, -1.000000000000000000 ) ) ;
#212 = DESIGN_CONTEXT ( 'detailed design', #312, 'design' ) ;
#213 = FACE_OUTER_BOUND ( 'NONE', #254, .T. ) ;
#214 = CC_DESIGN_PERSON_AND_ORGANIZATION_ASSIGNMENT ( #30, #5, ( #143 ) ) ;
#215 = CARTESIAN_POINT ( 'NONE',  ( -9.999999999999998224, 10.00000000000000355, 10.00000000000000000 ) ) ;
#216 = EDGE_LOOP ( 'NONE', ( #223, #195, #9, #108 ) ) ;
#217 = VERTEX_POINT ( 'NONE', #68 ) ;
#218 = VECTOR ( 'NONE', #134, 1000.000000000000000 ) ;
#219 = AXIS2_PLACEMENT_3D ( 'NONE', #256, #106, #133 ) ;
#220 = APPROVAL_ROLE ( '' ) ;
#221 = ORIENTED_EDGE ( 'NONE', *, *, #171, .T. ) ;
#222 = DATE_AND_TIME ( #97, #156 ) ;
#223 = ORIENTED_EDGE ( 'NONE', *, *, #273, .F. ) ;
#224 = PERSON_AND_ORGANIZATION ( #40, #35 ) ;
#225 = ORIENTED_EDGE ( 'NONE', *, *, #226, .F. ) ;
#226 = EDGE_CURVE ( 'NONE', #158, #306, #165, .T. ) ;
#227 = DATE_AND_TIME ( #50, #107 ) ;
#228 = CARTESIAN_POINT ( 'NONE',  ( -10.00000000000000178, -9.999999999999996447, -10.00000000000000000 ) ) ;
#229 = APPROVAL_PERSON_ORGANIZATION ( #224, #109, #99 ) ;
#230 = ORIENTED_EDGE ( 'NONE', *, *, #110, .F. ) ;
#231 = DATE_TIME_ROLE ( 'classification_date' ) ;
#232 = DIRECTION ( 'NONE',  ( -0.000000000000000000, -0.000000000000000000, -1.000000000000000000 ) ) ;
#233 = CARTESIAN_POINT ( 'NONE',  ( -9.999999999999998224, -10.00000000000000000, -10.00000000000000000 ) ) ;
#234 = VECTOR ( 'NONE', #310, 1000.000000000000000 ) ;
#235 = PLANE ( 'NONE',  #286 ) ;
#236 = VECTOR ( 'NONE', #44, 1000.000000000000000 ) ;
#237 = CARTESIAN_POINT ( 'NONE',  ( -9.999999999999998224, -10.00000000000000000, 10.00000000000000000 ) ) ;
#238 = LINE ( 'NONE', #90, #92 ) ;
#239 = CC_DESIGN_PERSON_AND_ORGANIZATION_ASSIGNMENT ( #4, #77, ( #162 ) ) ;
#240 = EDGE_CURVE ( 'NONE', #75, #28, #19, .T. ) ;
#241 = DIRECTION ( 'NONE',  ( -0.000000000000000000, 1.000000000000000000, -0.000000000000000000 ) ) ;
#242 = DIRECTION ( 'NONE',  ( 1.000000000000000000, 0.000000000000000000, 0.000000000000000000 ) ) ;
#243 = PLANE ( 'NONE',  #155 ) ;
#244 = APPLICATION_CONTEXT ( 'configuration controlled 3d designs of mechanical parts and assemblies' ) ;
#245 = AXIS2_PLACEMENT_3D ( 'NONE', #159, #258, #153 ) ;
#246 = EDGE_CURVE ( 'NONE', #298, #95, #70, .T. ) ;
#247 = CARTESIAN_POINT ( 'NONE',  ( 10.00000000000000000, 10.00000000000000000, -10.00000000000000000 ) ) ;
#248 = CC_DESIGN_PERSON_AND_ORGANIZATION_ASSIGNMENT ( #276, #52, ( #112 ) ) ;
#249 = DATE_AND_TIME ( #302, #16 ) ;
#250 = VECTOR ( 'NONE', #307, 1000.000000000000000 ) ;
#251 = APPLICATION_PROTOCOL_DEFINITION ( 'international standard', 'config_control_design', 1994, #312 ) ;
#252 = APPROVAL_DATE_TIME ( #249, #109 ) ;
#253 = ORIENTED_EDGE ( 'NONE', *, *, #171, .F. ) ;
#254 = EDGE_LOOP ( 'NONE', ( #230, #295, #304 ) ) ;
#255 = LINE ( 'NONE', #105, #309 ) ;
#256 = CARTESIAN_POINT ( 'NONE',  ( 10.00000000000000000, 10.00000000000000000, 10.00000000000000000 ) ) ;
#257 = ORIENTED_EDGE ( 'NONE', *, *, #189, .T. ) ;
#258 = DIRECTION ( 'NONE',  ( 0.7071067811865474617, -0.7071067811865475727, 0.000000000000000000 ) ) ;
#259 = PLANE ( 'NONE',  #245 ) ;
#260 = CC_DESIGN_APPROVAL ( #181, ( #162 ) ) ;
#261 = CARTESIAN_POINT ( 'NONE',  ( 10.00000000000000178, 9.999999999999998224, 10.00000000000000000 ) ) ;
#262 = DIRECTION ( 'NONE',  ( 0.000000000000000000, -0.000000000000000000, 1.000000000000000000 ) ) ;
#263 = CARTESIAN_POINT ( 'NONE',  ( 10.00000000000000178, 9.999999999999998224, -10.00000000000000000 ) ) ;
#264 = MANIFOLD_SOLID_BREP ( 'Í¹Ì¨-À', #148 ) ;
#265 = CC_DESIGN_APPROVAL ( #33, ( #197 ) ) ;
#266 = PLANE ( 'NONE',  #315 ) ;
#267 = DIRECTION ( 'NONE',  ( 0.000000000000000000, -0.000000000000000000, 1.000000000000000000 ) ) ;
#268 = CARTESIAN_POINT ( 'NONE',  ( 10.00000000000000178, 9.999999999999998224, -10.00000000000000000 ) ) ;
#269 = DIRECTION ( 'NONE',  ( -0.000000000000000000, 0.000000000000000000, 1.000000000000000000 ) ) ;
#270 = VERTEX_POINT ( 'NONE', #291 ) ;
#271 = DIRECTION ( 'NONE',  ( -0.7071067811865475727, -0.7071067811865474617, 0.000000000000000000 ) ) ;
#272 = VECTOR ( 'NONE', #67, 1000.000000000000000 ) ;
#273 = EDGE_CURVE ( 'NONE', #104, #28, #74, .T. ) ;
#274 = LINE ( 'NONE', #247, #236 ) ;
#275 = APPROVAL_STATUS ( 'not_yet_approved' ) ;
#276 = PERSON_AND_ORGANIZATION ( #40, #35 ) ;
#277 = ORIENTED_EDGE ( 'NONE', *, *, #12, .F. ) ;
#278 = ORIENTED_EDGE ( 'NONE', *, *, #21, .T. ) ;
#279 = PLANE ( 'NONE',  #51 ) ;
#280 = ORIENTED_EDGE ( 'NONE', *, *, #240, .F. ) ;
#281 = FACE_OUTER_BOUND ( 'NONE', #283, .T. ) ;
#282 = CARTESIAN_POINT ( 'NONE',  ( 10.00000000000000000, 10.00000000000000000, 10.00000000000000000 ) ) ;
#283 = EDGE_LOOP ( 'NONE', ( #49, #81, #79, #64 ) ) ;
#284 = PLANE ( 'NONE',  #73 ) ;
#285 = ADVANCED_FACE ( 'NONE', ( #316 ), #266, .F. ) ;
#286 = AXIS2_PLACEMENT_3D ( 'NONE', #14, #196, #15 ) ;
#287 = PLANE ( 'NONE',  #137 ) ;
#288 = CARTESIAN_POINT ( 'NONE',  ( -10.00000000000000178, -9.999999999999996447, 10.00000000000000000 ) ) ;
#289 = DIRECTION ( 'NONE',  ( -0.000000000000000000, 1.000000000000000000, -0.000000000000000000 ) ) ;
#290 = DIRECTION ( 'NONE',  ( 2.220446049250313081E-16, 1.000000000000000000, 0.000000000000000000 ) ) ;
#291 = CARTESIAN_POINT ( 'NONE',  ( 10.00000000000000178, -10.00000000000000000, 10.00000000000000000 ) ) ;
#292 = EDGE_CURVE ( 'NONE', #95, #104, #274, .T. ) ;
#293 = ADVANCED_BREP_SHAPE_REPRESENTATION ( 'BK7-LPBSC-20-633', ( #264, #47, #2 ), #11 ) ;
#294 = CC_DESIGN_PERSON_AND_ORGANIZATION_ASSIGNMENT ( #192, #76, ( #197 ) ) ;
#295 = ORIENTED_EDGE ( 'NONE', *, *, #91, .F. ) ;
#296 = ADVANCED_FACE ( 'NONE', ( #190 ), #48, .T. ) ;
#297 = DIRECTION ( 'NONE',  ( -0.000000000000000000, 0.000000000000000000, -1.000000000000000000 ) ) ;
#298 = VERTEX_POINT ( 'NONE', #215 ) ;
#299 = APPROVAL_STATUS ( 'not_yet_approved' ) ;
#300 = PERSON_AND_ORGANIZATION_ROLE ( 'design_supplier' ) ;
#301 = EDGE_CURVE ( 'NONE', #217, #104, #23, .T. ) ;
#302 = CALENDAR_DATE ( 2020, 22, 12 ) ;
#303 = COORDINATED_UNIVERSAL_TIME_OFFSET ( 8, 0, .AHEAD. ) ;
#304 = ORIENTED_EDGE ( 'NONE', *, *, #189, .F. ) ;
#305 = AXIS2_PLACEMENT_3D ( 'NONE', #116, #72, #71 ) ;
#306 = VERTEX_POINT ( 'NONE', #268 ) ;
#307 = DIRECTION ( 'NONE',  ( 2.220446049250313081E-16, 1.000000000000000000, 0.000000000000000000 ) ) ;
#308 = FACE_OUTER_BOUND ( 'NONE', #26, .T. ) ;
#309 = VECTOR ( 'NONE', #36, 1000.000000000000000 ) ;
#310 = DIRECTION ( 'NONE',  ( 1.000000000000000000, -2.220446049250313081E-16, 0.000000000000000000 ) ) ;
#311 = LINE ( 'NONE', #85, #250 ) ;
#312 = APPLICATION_CONTEXT ( 'configuration controlled 3d designs of mechanical parts and assemblies' ) ;
#313 = CARTESIAN_POINT ( 'NONE',  ( 10.00000000000000178, 9.999999999999998224, 10.00000000000000000 ) ) ;
#314 = LINE ( 'NONE', #187, #177 ) ;
#315 = AXIS2_PLACEMENT_3D ( 'NONE', #174, #93, #145 ) ;
#316 = FACE_OUTER_BOUND ( 'NONE', #46, .T. ) ;
#317 = LINE ( 'NONE', #313, #321 ) ;
#318 = CARTESIAN_POINT ( 'NONE',  ( -9.999999999999998224, 10.00000000000000355, 10.00000000000000000 ) ) ;
#319 = DIRECTION ( 'NONE',  ( 0.000000000000000000, 0.000000000000000000, 1.000000000000000000 ) ) ;
#320 = ORIENTED_EDGE ( 'NONE', *, *, #301, .T. ) ;
#321 = VECTOR ( 'NONE', #17, 1000.000000000000000 ) ;
ENDSEC;
END-ISO-10303-21;
